  0
SECTION
  2
HEADER
  9
$ACADVER
  1
AC1015
  9
$ACADMAINTVER
 70
     6
  9
$DWGCODEPAGE
  3
ANSI_1254
  9
$INSBASE
 10
0.0
 20
0.0
 30
0.0
  9
$EXTMIN
 10
0.0
 20
0.0
 30
0.0
  9
$EXTMAX
 10
279.4
 20
215.9
 30
0.0
  9
$LIMMIN
 10
0.0
 20
0.0
  9
$LIMMAX
 10
279.4
 20
215.9
  9
$ORTHOMODE
 70
     0
  9
$REGENMODE
 70
     1
  9
$FILLMODE
 70
     1
  9
$QTEXTMODE
 70
     0
  9
$MIRRTEXT
 70
     1
  9
$LTSCALE
 40
1.0
  9
$ATTMODE
 70
     1
  9
$TEXTSIZE
 40
3.5
  9
$TRACEWID
 40
1.0
  9
$TEXTSTYLE
  7
Standard
  9
$CLAYER
  8
0
  9
$CELTYPE
  6
ByLayer
  9
$CECOLOR
 62
   256
  9
$CELTSCALE
 40
1.0
  9
$DISPSILH
 70
     0
  9
$DIMSCALE
 40
1.0
  9
$DIMASZ
 40
3.5
  9
$DIMEXO
 40
1.0
  9
$DIMDLI
 40
3.75
  9
$DIMRND
 40
0.0
  9
$DIMDLE
 40
0.0
  9
$DIMEXE
 40
1.0
  9
$DIMTP
 40
0.0
  9
$DIMTM
 40
0.0
  9
$DIMTXT
 40
3.5
  9
$DIMCEN
 40
2.5
  9
$DIMTSZ
 40
0.0
  9
$DIMTOL
 70
     0
  9
$DIMLIM
 70
     0
  9
$DIMTIH
 70
     1
  9
$DIMTOH
 70
     1
  9
$DIMSE1
 70
     0
  9
$DIMSE2
 70
     0
  9
$DIMTAD
 70
     1
  9
$DIMZIN
 70
     0
  9
$DIMBLK
  1

  9
$DIMASO
 70
     1
  9
$DIMSHO
 70
     1
  9
$DIMPOST
  1

  9
$DIMAPOST
  1

  9
$DIMALT
 70
     0
  9
$DIMALTD
 70
     3
  9
$DIMALTF
 40
0.0393700787
  9
$DIMLFAC
 40
1.0
  9
$DIMTOFL
 70
     1
  9
$DIMTVP
 40
0.0
  9
$DIMTIX
 70
     0
  9
$DIMSOXD
 70
     0
  9
$DIMSAH
 70
     0
  9
$DIMBLK1
  1

  9
$DIMBLK2
  1

  9
$DIMSTYLE
  2
ISO-25
  9
$DIMCLRD
 70
     0
  9
$DIMCLRE
 70
     0
  9
$DIMCLRT
 70
     0
  9
$DIMTFAC
 40
1.0
  9
$DIMGAP
 40
1.524
  9
$DIMJUST
 70
     0
  9
$DIMSD1
 70
     0
  9
$DIMSD2
 70
     0
  9
$DIMTOLJ
 70
     0
  9
$DIMTZIN
 70
     0
  9
$DIMALTZ
 70
     0
  9
$DIMALTTZ
 70
     0
  9
$DIMUPT
 70
     0
  9
$DIMDEC
 70
     2
  9
$DIMTDEC
 70
     2
  9
$DIMALTU
 70
     2
  9
$DIMALTTD
 70
     3
  9
$DIMTXSTY
  7
Standard
  9
$DIMAUNIT
 70
     0
  9
$DIMADEC
 70
     2
  9
$DIMALTRND
 40
0.0
  9
$DIMAZIN
 70
     0
  9
$DIMDSEP
 70
    44
  9
$DIMATFIT
 70
     3
  9
$DIMFRAC
 70
     0
  9
$DIMLDRBLK
  1

  9
$DIMLUNIT
 70
     2
  9
$DIMLWD
 70
    -2
  9
$DIMLWE
 70
    -2
  9
$DIMTMOVE
 70
     0
  9
$LUNITS
 70
     2
  9
$LUPREC
 70
     2
  9
$SKETCHINC
 40
1.0
  9
$FILLETRAD
 40
10.0
  9
$AUNITS
 70
     0
  9
$AUPREC
 70
     2
  9
$MENU
  1
.
  9
$ELEVATION
 40
0.0
  9
$PELEVATION
 40
0.0
  9
$THICKNESS
 40
0.0
  9
$LIMCHECK
 70
     0
  9
$CHAMFERA
 40
0.0
  9
$CHAMFERB
 40
0.0
  9
$CHAMFERC
 40
0.0
  9
$CHAMFERD
 40
0.0
  9
$SKPOLY
 70
     0
  9
$TDCREATE
 40
2458985.633359745
  9
$TDUCREATE
 40
2458985.508359745
  9
$TDUPDATE
 40
2458985.633360012
  9
$TDUUPDATE
 40
2458985.508360012
  9
$TDINDWG
 40
0.0000000116
  9
$TDUSRTIMER
 40
0.0000000116
  9
$USRTIMER
 70
     1
  9
$ANGBASE
 50
0.0
  9
$ANGDIR
 70
     0
  9
$PDMODE
 70
     0
  9
$PDSIZE
 40
-1.0
  9
$PLINEWID
 40
0.0
  9
$SPLFRAME
 70
     0
  9
$SPLINETYPE
 70
     6
  9
$SPLINESEGS
 70
     8
  9
$HANDSEED
  5
CE
  9
$SURFTAB1
 70
     6
  9
$SURFTAB2
 70
     6
  9
$SURFTYPE
 70
     6
  9
$SURFU
 70
     6
  9
$SURFV
 70
     6
  9
$UCSBASE
  2

  9
$UCSNAME
  2

  9
$UCSORG
 10
0.0
 20
0.0
 30
0.0
  9
$UCSXDIR
 10
1.0
 20
0.0
 30
0.0
  9
$UCSYDIR
 10
0.0
 20
1.0
 30
0.0
  9
$UCSORTHOREF
  2

  9
$UCSORTHOVIEW
 70
     0
  9
$UCSORGTOP
 10
0.0
 20
0.0
 30
0.0
  9
$UCSORGBOTTOM
 10
0.0
 20
0.0
 30
0.0
  9
$UCSORGLEFT
 10
0.0
 20
0.0
 30
0.0
  9
$UCSORGRIGHT
 10
0.0
 20
0.0
 30
0.0
  9
$UCSORGFRONT
 10
0.0
 20
0.0
 30
0.0
  9
$UCSORGBACK
 10
0.0
 20
0.0
 30
0.0
  9
$PUCSBASE
  2

  9
$PUCSNAME
  2

  9
$PUCSORG
 10
0.0
 20
0.0
 30
0.0
  9
$PUCSXDIR
 10
1.0
 20
0.0
 30
0.0
  9
$PUCSYDIR
 10
0.0
 20
1.0
 30
0.0
  9
$PUCSORTHOREF
  2

  9
$PUCSORTHOVIEW
 70
     0
  9
$PUCSORGTOP
 10
0.0
 20
0.0
 30
0.0
  9
$PUCSORGBOTTOM
 10
0.0
 20
0.0
 30
0.0
  9
$PUCSORGLEFT
 10
0.0
 20
0.0
 30
0.0
  9
$PUCSORGRIGHT
 10
0.0
 20
0.0
 30
0.0
  9
$PUCSORGFRONT
 10
0.0
 20
0.0
 30
0.0
  9
$PUCSORGBACK
 10
0.0
 20
0.0
 30
0.0
  9
$USERI1
 70
     0
  9
$USERI2
 70
     0
  9
$USERI3
 70
     0
  9
$USERI4
 70
     0
  9
$USERI5
 70
     0
  9
$USERR1
 40
0.0
  9
$USERR2
 40
0.0
  9
$USERR3
 40
0.0
  9
$USERR4
 40
0.0
  9
$USERR5
 40
0.0
  9
$WORLDVIEW
 70
     1
  9
$SHADEDGE
 70
     3
  9
$SHADEDIF
 70
    70
  9
$TILEMODE
 70
     1
  9
$MAXACTVP
 70
    64
  9
$PINSBASE
 10
0.0
 20
0.0
 30
0.0
  9
$PLIMCHECK
 70
     0
  9
$PEXTMIN
 10
1.0000000000E+20
 20
1.0000000000E+20
 30
1.0000000000E+20
  9
$PEXTMAX
 10
-1.0000000000E+20
 20
-1.0000000000E+20
 30
-1.0000000000E+20
  9
$PLIMMIN
 10
0.0
 20
0.0
  9
$PLIMMAX
 10
420.0
 20
297.0
  9
$UNITMODE
 70
     0
  9
$VISRETAIN
 70
     1
  9
$PLINEGEN
 70
     0
  9
$PSLTSCALE
 70
     1
  9
$TREEDEPTH
 70
  3020
  9
$CMLSTYLE
  2
Standard
  9
$CMLJUST
 70
     0
  9
$CMLSCALE
 40
20.0
  9
$PROXYGRAPHICS
 70
     1
  9
$MEASUREMENT
 70
     1
  9
$CELWEIGHT
370
    -1
  9
$ENDCAPS
280
     0
  9
$JOINSTYLE
280
     0
  9
$LWDISPLAY
290
     1
  9
$INSUNITS
 70
     4
  9
$HYPERLINKBASE
  1

  9
$STYLESHEET
  1

  9
$XEDIT
290
     1
  9
$CEPSNTYPE
380
     0
  9
$PSTYLEMODE
290
     1
  9
$FINGERPRINTGUID
  2
{0832a78e-b613-4162-8b8d-7031e6f0949c}
  9
$VERSIONGUID
  2
{FAEB1C32-E019-11D5-929B-00C0DF256EC4}
  9
$EXTNAMES
290
     1
  9
$PSVPSCALE
 40
0.0
  9
$OLESTARTUP
290
     0
  0
ENDSEC
  0
SECTION
  2
CLASSES
  0
CLASS
  1
ACDBDICTIONARYWDFLT
  2
AcDbDictionaryWithDefault
  3
ObjectDBX Classes
 90
        0
280
     0
281
     0
  0
CLASS
  1
VISUALSTYLE
  2
AcDbVisualStyle
  3
ObjectDBX Classes
 90
     4095
280
     0
281
     0
  0
CLASS
  1
MATERIAL
  2
AcDbMaterial
  3
ObjectDBX Classes
 90
     1153
280
     0
281
     0
  0
CLASS
  1
SCALE
  2
AcDbScale
  3
ObjectDBX Classes
 90
     1153
280
     0
281
     0
  0
CLASS
  1
TABLESTYLE
  2
AcDbTableStyle
  3
ObjectDBX Classes
 90
     4095
280
     0
281
     0
  0
CLASS
  1
MLEADERSTYLE
  2
AcDbMLeaderStyle
  3
ACDB_MLEADERSTYLE_CLASS
 90
     4095
280
     0
281
     0
  0
CLASS
  1
SUN
  2
AcDbSun
  3
SCENEOE
 90
     1153
280
     0
281
     0
  0
CLASS
  1
ACDBPLACEHOLDER
  2
AcDbPlaceHolder
  3
ObjectDBX Classes
 90
        0
280
     0
281
     0
  0
CLASS
  1
LAYOUT
  2
AcDbLayout
  3
ObjectDBX Classes
 90
        0
280
     0
281
     0
  0
ENDSEC
  0
SECTION
  2
TABLES
  0
TABLE
  2
VPORT
  5
8
330
0
100
AcDbSymbolTable
 70
     1
  0
VPORT
  5
29
330
8
100
AcDbSymbolTableRecord
100
AcDbViewportTableRecord
  2
*Active
 70
     0
 10
0.0
 20
0.0
 11
1.0
 21
1.0
 12
139.7
 22
107.95
 13
0.0
 23
0.0
 14
10.0
 24
10.0
 15
10.0
 25
10.0
 16
0.0
 26
0.0
 36
1.0
 17
0.0
 27
0.0
 37
0.0
 40
215.9
 41
1.2941176471
 42
50.0
 43
0.0
 44
0.0
 50
0.0
 51
0.0
 71
     0
 72
  2000
 73
     1
 74
     3
 75
     0
 76
     0
 77
     0
 78
     0
281
     0
 65
     1
110
0.0
120
0.0
130
0.0
111
1.0
121
0.0
131
0.0
112
0.0
122
1.0
132
0.0
 79
     0
146
0.0
  0
ENDTAB
  0
TABLE
  2
LTYPE
  5
5
330
0
100
AcDbSymbolTable
 70
     6
  0
LTYPE
  5
14
330
5
100
AcDbSymbolTableRecord
100
AcDbLinetypeTableRecord
  2
ByBlock
 70
     0
  3

 72
    65
 73
     0
 40
0.0
  0
LTYPE
  5
15
330
5
100
AcDbSymbolTableRecord
100
AcDbLinetypeTableRecord
  2
ByLayer
 70
     0
  3

 72
    65
 73
     0
 40
0.0
  0
LTYPE
  5
16
330
5
100
AcDbSymbolTableRecord
100
AcDbLinetypeTableRecord
  2
Continuous
 70
     0
  3
Solid line
 72
    65
 73
     0
 40
0.0
  0
LTYPE
  5
6E
330
5
100
AcDbSymbolTableRecord
100
AcDbLinetypeTableRecord
  2
HIDDEN
 70
     0
  3
Hidden __ __ __ __ __ __ __ __ __ __ __ __ __ __
 72
    65
 73
     2
 40
1.905
 49
1.27
 74
     0
 49
-0.635
 74
     0
  0
LTYPE
  5
6F
330
5
100
AcDbSymbolTableRecord
100
AcDbLinetypeTableRecord
  2
PHANTOM
 70
     0
  3
Phantom ______  __  __  ______  __  __  ______
 72
    65
 73
     6
 40
12.7
 49
6.35
 74
     0
 49
-1.27
 74
     0
 49
1.27
 74
     0
 49
-1.27
 74
     0
 49
1.27
 74
     0
 49
-1.27
 74
     0
  0
LTYPE
  5
70
330
5
100
AcDbSymbolTableRecord
100
AcDbLinetypeTableRecord
  2
CENTER
 70
     0
  3
Center ____ _ ____ _ ____ _ ____ _ ____ _ ____
 72
    65
 73
     4
 40
10.16
 49
6.35
 74
     0
 49
-1.27
 74
     0
 49
1.27
 74
     0
 49
-1.27
 74
     0
  0
LTYPE
  5
71
330
5
100
AcDbSymbolTableRecord
100
AcDbLinetypeTableRecord
  2
CENTERX2
 70
     0
  3
Center (2x) ________  __  ________  __  _____
 72
    65
 73
     4
 40
20.32
 49
12.7
 74
     0
 49
-2.54
 74
     0
 49
2.54
 74
     0
 49
-2.54
 74
     0
  0
LTYPE
  5
72
330
5
100
AcDbSymbolTableRecord
100
AcDbLinetypeTableRecord
  2
DOT2
 70
     0
  3
Dot (.5x) ........................................
 72
    65
 73
     2
 40
0.635
 49
0.0
 74
     0
 49
-0.635
 74
     0
  0
ENDTAB
  0
TABLE
  2
LAYER
  5
2
330
0
100
AcDbSymbolTable
 70
    17
  0
LAYER
  5
10
330
2
100
AcDbSymbolTableRecord
100
AcDbLayerTableRecord
  2
0
 70
     0
 62
     7
  6
Continuous
370
    -3
390
F
  0
LAYER
  5
73
330
2
100
AcDbSymbolTableRecord
100
AcDbLayerTableRecord
  2
FORMAT
 70
     0
 62
     7
  6
Continuous
370
    -3
390
F
  0
LAYER
  5
74
330
2
100
AcDbSymbolTableRecord
100
AcDbLayerTableRecord
  2
YARDIMCI_GEOMETRI
 70
     0
 62
    -6
  6
Continuous
290
     0
370
    -3
390
F
  0
LAYER
  5
75
330
2
100
AcDbSymbolTableRecord
100
AcDbLayerTableRecord
  2
SAYFA_CERCEVESI
 70
     0
 62
     7
  6
Continuous
370
    25
390
F
  0
LAYER
  5
76
330
2
100
AcDbSymbolTableRecord
100
AcDbLayerTableRecord
  2
ANTET
 70
     0
 62
     7
  6
Continuous
370
    -3
390
F
  0
LAYER
  5
77
330
2
100
AcDbSymbolTableRecord
100
AcDbLayerTableRecord
  2
OLCU
 70
     0
 62
   150
  6
Continuous
370
    -3
390
F
  0
LAYER
  5
78
330
2
100
AcDbSymbolTableRecord
100
AcDbLayerTableRecord
  2
METIN
 70
     0
 62
    96
  6
Continuous
370
    -3
390
F
  0
LAYER
  5
79
330
2
100
AcDbSymbolTableRecord
100
AcDbLayerTableRecord
  2
BALON
 70
     0
 62
     5
  6
Continuous
370
    -3
390
F
  0
LAYER
  5
7A
330
2
100
AcDbSymbolTableRecord
100
AcDbLayerTableRecord
  2
VURGU
 70
     0
 62
     7
  6
Continuous
370
    -3
390
F
  0
LAYER
  5
7B
330
2
100
AcDbSymbolTableRecord
100
AcDbLayerTableRecord
  2
SILIK
 70
     0
 62
     7
  6
Continuous
370
    -3
390
F
  0
LAYER
  5
7C
330
2
100
AcDbSymbolTableRecord
100
AcDbLayerTableRecord
  2
MODEL
 70
     0
 62
     7
  6
Continuous
370
    -3
390
F
  0
LAYER
  5
7D
330
2
100
AcDbSymbolTableRecord
100
AcDbLayerTableRecord
  2
DETAYLANDıRMA
 70
     0
 62
   190
  6
Continuous
370
    -3
390
F
  0
LAYER
  5
7E
330
2
100
AcDbSymbolTableRecord
100
AcDbLayerTableRecord
  2
TOLERANS
 70
     0
 62
   230
  6
Continuous
370
    -3
390
F
  0
LAYER
  5
7F
330
2
100
AcDbSymbolTableRecord
100
AcDbLayerTableRecord
  2
MERKEZ_CIZGILERI
 70
     0
 62
    30
  6
Continuous
370
    -3
390
F
  0
LAYER
  5
80
330
2
100
AcDbSymbolTableRecord
100
AcDbLayerTableRecord
  2
KESIT-DETAY_CIZGILERI
 70
     0
 62
     7
  6
Continuous
370
    -3
390
F
  0
LAYER
  5
81
330
2
100
AcDbSymbolTableRecord
100
AcDbLayerTableRecord
  2
\U+041E\U+0421\U+0415\U+0412\U+042B\U+0415
 70
     0
 62
     7
  6
Continuous
370
    -3
390
F
  0
LAYER
  5
82
330
2
100
AcDbSymbolTableRecord
100
AcDbLayerTableRecord
  2
\U+0412\U+041E\U+0414\U+042F\U+041D\U+042B\U+0415_\U+0417\U+041D\U+0410\U+041A\U+0418
 70
     0
 62
    11
  6
Continuous
370
    -3
390
F
  0
ENDTAB
  0
TABLE
  2
STYLE
  5
3
330
0
100
AcDbSymbolTable
 70
     1
  0
STYLE
  5
11
330
3
100
AcDbSymbolTableRecord
100
AcDbTextStyleTableRecord
  2
Standard
 70
     0
 40
0.0
 41
1.0
 50
0.0
 71
     0
 42
3.5
  3
txt
  4

  0
ENDTAB
  0
TABLE
  2
VIEW
  5
6
330
0
100
AcDbSymbolTable
 70
     0
  0
ENDTAB
  0
TABLE
  2
UCS
  5
7
330
0
100
AcDbSymbolTable
 70
     0
  0
ENDTAB
  0
TABLE
  2
APPID
  5
9
330
0
100
AcDbSymbolTable
 70
     1
  0
APPID
  5
12
330
9
100
AcDbSymbolTableRecord
100
AcDbRegAppTableRecord
  2
ACAD
 70
     0
  0
ENDTAB
  0
TABLE
  2
DIMSTYLE
  5
A
330
0
100
AcDbSymbolTable
 70
     1
100
AcDbDimStyleTable
  0
DIMSTYLE
105
27
330
A
100
AcDbSymbolTableRecord
100
AcDbDimStyleTableRecord
  2
ISO-25
 70
     0
 41
2.5
 42
0.625
 43
3.75
 44
1.25
 73
     0
 74
     0
 77
     1
 78
     8
140
2.5
141
2.5
143
0.0393700787
147
0.625
171
     3
172
     1
178
     0
271
     2
272
     2
274
     3
278
    44
283
     0
284
     8
340
11
  0
ENDTAB
  0
TABLE
  2
BLOCK_RECORD
  5
1
330
0
100
AcDbSymbolTable
 70
     2
  0
BLOCK_RECORD
  5
1F
330
1
100
AcDbSymbolTableRecord
100
AcDbBlockTableRecord
  2
*Model_Space
340
22
  0
BLOCK_RECORD
  5
1B
330
1
100
AcDbSymbolTableRecord
100
AcDbBlockTableRecord
  2
*Paper_Space
340
1E
  0
BLOCK_RECORD
  5
23
330
1
100
AcDbSymbolTableRecord
100
AcDbBlockTableRecord
  2
*Paper_Space0
340
26
  0
BLOCK_RECORD
  5
87
330
1
100
AcDbSymbolTableRecord
100
AcDbBlockTableRecord
  2
SW_CENTERMARKSYMBOL_0
340
0
102
{BLKREFS
331
92
102
}
  0
ENDTAB
  0
ENDSEC
  0
SECTION
  2
BLOCKS
  0
BLOCK
  5
20
330
1F
100
AcDbEntity
  8
0
100
AcDbBlockBegin
  2
*Model_Space
 70
     0
 10
0.0
 20
0.0
 30
0.0
  3
*Model_Space
  1

  0
ENDBLK
  5
21
330
1F
100
AcDbEntity
  8
0
100
AcDbBlockEnd
  0
BLOCK
  5
1C
330
1B
100
AcDbEntity
 67
     1
  8
0
100
AcDbBlockBegin
  2
*Paper_Space
 70
     0
 10
0.0
 20
0.0
 30
0.0
  3
*Paper_Space
  1

  0
ENDBLK
  5
1D
330
1B
100
AcDbEntity
 67
     1
  8
0
100
AcDbBlockEnd
  0
BLOCK
  5
24
330
23
100
AcDbEntity
  8
0
100
AcDbBlockBegin
  2
*Paper_Space0
 70
     0
 10
0.0
 20
0.0
 30
0.0
  3
*Paper_Space0
  1

  0
ENDBLK
  5
25
330
23
100
AcDbEntity
  8
0
100
AcDbBlockEnd
  0
BLOCK
  5
88
330
87
100
AcDbEntity
  8
0
100
AcDbBlockBegin
  2
SW_CENTERMARKSYMBOL_0
 70
     0
 10
0.0
 20
0.0
 30
0.0
  3
SW_CENTERMARKSYMBOL_0
  1

  0
LINE
  5
8A
330
87
100
AcDbEntity
  8
FORMAT
 62
     0
100
AcDbLine
 10
0.0
 20
0.0
 30
0.0
 11
0.0
 21
2.5
 31
0.0
  0
LINE
  5
8B
330
87
100
AcDbEntity
  8
FORMAT
 62
     0
100
AcDbLine
 10
0.0
 20
0.0
 30
0.0
 11
-2.5
 21
0.0
 31
0.0
  0
LINE
  5
8C
330
87
100
AcDbEntity
  8
FORMAT
 62
     0
100
AcDbLine
 10
0.0
 20
0.0
 30
0.0
 11
0.0
 21
-2.5
 31
0.0
  0
LINE
  5
8D
330
87
100
AcDbEntity
  8
FORMAT
 62
     0
100
AcDbLine
 10
0.0
 20
0.0
 30
0.0
 11
2.5
 21
0.0
 31
0.0
  0
LINE
  5
8E
330
87
100
AcDbEntity
  8
FORMAT
 62
     0
100
AcDbLine
 10
0.0
 20
5.0
 30
0.0
 11
0.0
 21
347.5
 31
0.0
  0
LINE
  5
8F
330
87
100
AcDbEntity
  8
FORMAT
 62
     0
100
AcDbLine
 10
-5.0
 20
0.0
 30
0.0
 11
-347.5
 21
0.0
 31
0.0
  0
LINE
  5
90
330
87
100
AcDbEntity
  8
FORMAT
 62
     0
100
AcDbLine
 10
0.0
 20
-5.0
 30
0.0
 11
0.0
 21
-347.5
 31
0.0
  0
LINE
  5
91
330
87
100
AcDbEntity
  8
FORMAT
 62
     0
100
AcDbLine
 10
5.0
 20
0.0
 30
0.0
 11
347.5
 21
0.0
 31
0.0
  0
ENDBLK
  5
89
330
87
100
AcDbEntity
  8
0
100
AcDbBlockEnd
  0
ENDSEC
  0
SECTION
  2
ENTITIES
  0
CIRCLE
  5
83
330
1F
100
AcDbEntity
  8
0
  6
Continuous
 62
     7
370
    25
100
AcDbCircle
 10
140.5954629203
 20
106.5827847246
 30
0.0
 40
315.0000000000001
  0
CIRCLE
  5
84
330
1F
100
AcDbEntity
  8
0
  6
Continuous
 62
     7
370
    25
100
AcDbCircle
 10
140.5954629203
 20
106.5827847246
 30
0.0
 40
257.8
  0
CIRCLE
  5
85
330
1F
100
AcDbEntity
  8
0
  6
Continuous
 62
     7
370
    25
100
AcDbCircle
 10
140.5954629203
 20
106.5827847246
 30
0.0
 40
322.5
  0
CIRCLE
  5
86
330
1F
100
AcDbEntity
  8
0
  6
Continuous
 62
     7
370
    25
100
AcDbCircle
 10
140.5954629203
 20
106.5827847246
 30
0.0
 40
345.0
  0
INSERT
  5
92
330
1F
100
AcDbEntity
  8
FORMAT
 62
     7
100
AcDbBlockReference
  2
SW_CENTERMARKSYMBOL_0
 10
140.5954629203
 20
106.5827847246
 30
0.0
  0
LINE
  5
93
330
1F
100
AcDbEntity
  8
0
  6
Continuous
 62
     7
370
    25
100
AcDbLine
 10
485.5954629203
 20
543.8661495924
 30
0.0
 11
485.5954629203
 21
608.8661495924
 31
0.0
  0
LINE
  5
94
330
1F
100
AcDbEntity
  8
0
  6
Continuous
 62
     7
370
    25
100
AcDbLine
 10
-204.4045370797
 20
608.8661495924
 30
0.0
 11
-204.4045370797
 21
543.8661495924
 31
0.0
  0
LINE
  5
95
330
1F
100
AcDbEntity
  8
0
  6
Continuous
 62
     7
370
    25
100
AcDbLine
 10
463.0954629203
 20
608.8661495924
 30
0.0
 11
455.5954629203
 21
692.8661495924
 31
0.0
  0
LINE
  5
96
330
1F
100
AcDbEntity
  8
0
  6
Continuous
 62
     7
370
    25
100
AcDbLine
 10
-174.4045370797
 20
692.8661495924
 30
0.0
 11
-181.9045370797
 21
608.8661495924
 31
0.0
  0
LINE
  5
97
330
1F
100
AcDbEntity
  8
0
  6
Continuous
 62
     7
370
    25
100
AcDbLine
 10
455.5954629203
 20
692.8661495924
 30
0.0
 11
455.5954629203
 21
947.8661495924
 31
0.0
  0
LINE
  5
98
330
1F
100
AcDbEntity
  8
0
  6
Continuous
 62
     7
370
    25
100
AcDbLine
 10
-174.4045370797
 20
947.8661495924
 30
0.0
 11
-174.4045370797
 21
692.8661495924
 31
0.0
  0
LINE
  5
99
330
1F
100
AcDbEntity
  8
0
  6
Continuous
 62
     7
370
    25
100
AcDbLine
 10
485.5954629203
 20
543.8661495924
 30
0.0
 11
-204.4045370797
 21
543.8661495924
 31
0.0
  0
LINE
  5
9A
330
1F
100
AcDbEntity
  8
0
  6
Continuous
 62
     7
370
    25
100
AcDbLine
 10
485.5954629203
 20
608.8661495924
 30
0.0
 11
-204.4045370797
 21
608.8661495924
 31
0.0
  0
LINE
  5
9B
330
1F
100
AcDbEntity
  8
0
  6
Continuous
 62
     7
370
    25
100
AcDbLine
 10
455.5954629203
 20
692.8661495924
 30
0.0
 11
-174.4045370797
 21
692.8661495924
 31
0.0
  0
LINE
  5
9C
330
1F
100
AcDbEntity
  8
0
  6
Continuous
 62
     7
370
    25
100
AcDbLine
 10
455.5954629203
 20
947.8661495924
 30
0.0
 11
-174.4045370797
 21
947.8661495924
 31
0.0
  0
LINE
  5
9D
330
1F
100
AcDbEntity
  8
0
  6
Continuous
 62
     7
370
    25
100
AcDbLine
 10
-371.4834330308
 20
451.5827847246
 30
0.0
 11
-436.4834330308
 21
451.5827847246
 31
0.0
  0
LINE
  5
9E
330
1F
100
AcDbEntity
  8
0
  6
Continuous
 62
     7
370
    25
100
AcDbLine
 10
-436.4834330308
 20
-238.4172152754
 30
0.0
 11
-371.4834330308
 21
-238.4172152754
 31
0.0
  0
LINE
  5
9F
330
1F
100
AcDbEntity
  8
0
  6
Continuous
 62
     7
370
    25
100
AcDbLine
 10
-436.4834330308
 20
429.0827847246
 30
0.0
 11
-520.4834330308
 21
421.5827847246
 31
0.0
  0
LINE
  5
A0
330
1F
100
AcDbEntity
  8
0
  6
Continuous
 62
     7
370
    25
100
AcDbLine
 10
-520.4834330308
 20
-208.4172152754
 30
0.0
 11
-436.4834330308
 21
-215.9172152754
 31
0.0
  0
LINE
  5
A1
330
1F
100
AcDbEntity
  8
0
  6
Continuous
 62
     7
370
    25
100
AcDbLine
 10
-520.4834330308
 20
421.5827847246
 30
0.0
 11
-775.4834330308
 21
421.5827847246
 31
0.0
  0
LINE
  5
A2
330
1F
100
AcDbEntity
  8
0
  6
Continuous
 62
     7
370
    25
100
AcDbLine
 10
-775.4834330308
 20
-208.4172152754
 30
0.0
 11
-520.4834330308
 21
-208.4172152754
 31
0.0
  0
LINE
  5
A3
330
1F
100
AcDbEntity
  8
0
  6
Continuous
 62
     7
370
    25
100
AcDbLine
 10
-371.4834330308
 20
451.5827847246
 30
0.0
 11
-371.4834330308
 21
-238.4172152754
 31
0.0
  0
LINE
  5
A4
330
1F
100
AcDbEntity
  8
0
  6
Continuous
 62
     7
370
    25
100
AcDbLine
 10
-436.4834330308
 20
451.5827847246
 30
0.0
 11
-436.4834330308
 21
-238.4172152754
 31
0.0
  0
LINE
  5
A5
330
1F
100
AcDbEntity
  8
0
  6
Continuous
 62
     7
370
    25
100
AcDbLine
 10
-520.4834330308
 20
421.5827847246
 30
0.0
 11
-520.4834330308
 21
-208.4172152754
 31
0.0
  0
LINE
  5
A6
330
1F
100
AcDbEntity
  8
0
  6
Continuous
 62
     7
370
    25
100
AcDbLine
 10
-775.4834330308
 20
421.5827847246
 30
0.0
 11
-775.4834330308
 21
-208.4172152754
 31
0.0
  0
LINE
  5
A7
330
1F
100
AcDbEntity
  8
0
  6
Continuous
 62
     7
370
    25
100
AcDbLine
 10
633.4807596184
 20
-238.4172152754
 30
0.0
 11
698.4807596184
 21
-238.4172152754
 31
0.0
  0
LINE
  5
A8
330
1F
100
AcDbEntity
  8
0
  6
Continuous
 62
     7
370
    25
100
AcDbLine
 10
698.4807596184
 20
451.5827847246
 30
0.0
 11
633.4807596184
 21
451.5827847246
 31
0.0
  0
LINE
  5
A9
330
1F
100
AcDbEntity
  8
0
  6
Continuous
 62
     7
370
    25
100
AcDbLine
 10
698.4807596184
 20
-215.9172152754
 30
0.0
 11
782.4807596184
 21
-208.4172152754
 31
0.0
  0
LINE
  5
AA
330
1F
100
AcDbEntity
  8
0
  6
Continuous
 62
     7
370
    25
100
AcDbLine
 10
782.4807596184
 20
421.5827847246
 30
0.0
 11
698.4807596184
 21
429.0827847246
 31
0.0
  0
LINE
  5
AB
330
1F
100
AcDbEntity
  8
0
  6
Continuous
 62
     7
370
    25
100
AcDbLine
 10
782.4807596184
 20
-208.4172152754
 30
0.0
 11
1037.4807596184
 21
-208.4172152754
 31
0.0
  0
LINE
  5
AC
330
1F
100
AcDbEntity
  8
0
  6
Continuous
 62
     7
370
    25
100
AcDbLine
 10
1037.4807596184
 20
421.5827847246
 30
0.0
 11
782.4807596184
 21
421.5827847246
 31
0.0
  0
LINE
  5
AD
330
1F
100
AcDbEntity
  8
0
  6
Continuous
 62
     7
370
    25
100
AcDbLine
 10
633.4807596184
 20
106.5827847246
 30
0.0
 11
633.4807596184
 21
451.5827847246
 31
0.0
  0
LINE
  5
AE
330
1F
100
AcDbEntity
  8
0
  6
Continuous
 62
     7
370
    25
100
AcDbLine
 10
633.4807596184
 20
-238.4172152754
 30
0.0
 11
633.4807596184
 21
106.5827847246
 31
0.0
  0
LINE
  5
AF
330
1F
100
AcDbEntity
  8
0
  6
Continuous
 62
     7
370
    25
100
AcDbLine
 10
698.4807596184
 20
106.5827847246
 30
0.0
 11
698.4807596184
 21
451.5827847246
 31
0.0
  0
LINE
  5
B0
330
1F
100
AcDbEntity
  8
0
  6
Continuous
 62
     7
370
    25
100
AcDbLine
 10
698.4807596184
 20
-238.4172152754
 30
0.0
 11
698.4807596184
 21
106.5827847246
 31
0.0
  0
LINE
  5
B1
330
1F
100
AcDbEntity
  8
0
  6
Continuous
 62
     7
370
    25
100
AcDbLine
 10
782.4807596184
 20
106.5827847246
 30
0.0
 11
782.4807596184
 21
421.5827847246
 31
0.0
  0
LINE
  5
B2
330
1F
100
AcDbEntity
  8
0
  6
Continuous
 62
     7
370
    25
100
AcDbLine
 10
782.4807596184
 20
-208.4172152754
 30
0.0
 11
782.4807596184
 21
106.5827847246
 31
0.0
  0
LINE
  5
B3
330
1F
100
AcDbEntity
  8
0
  6
Continuous
 62
     7
370
    25
100
AcDbLine
 10
1037.4807596184
 20
106.5827847246
 30
0.0
 11
1037.4807596184
 21
421.5827847246
 31
0.0
  0
LINE
  5
B4
330
1F
100
AcDbEntity
  8
0
  6
Continuous
 62
     7
370
    25
100
AcDbLine
 10
1037.4807596184
 20
-208.4172152754
 30
0.0
 11
1037.4807596184
 21
106.5827847246
 31
0.0
  0
LINE
  5
B5
330
1F
100
AcDbEntity
  8
0
  6
Continuous
 62
     7
370
    25
100
AcDbLine
 10
-204.4045370797
 20
-523.7356724628
 30
0.0
 11
-204.4045370797
 21
-588.7356724628
 31
0.0
  0
LINE
  5
B6
330
1F
100
AcDbEntity
  8
0
  6
Continuous
 62
     7
370
    25
100
AcDbLine
 10
485.5954629203
 20
-588.7356724628
 30
0.0
 11
485.5954629203
 21
-523.7356724628
 31
0.0
  0
LINE
  5
B7
330
1F
100
AcDbEntity
  8
0
  6
Continuous
 62
     7
370
    25
100
AcDbLine
 10
-181.9045370797
 20
-588.7356724628
 30
0.0
 11
-174.4045370797
 21
-672.7356724628
 31
0.0
  0
LINE
  5
B8
330
1F
100
AcDbEntity
  8
0
  6
Continuous
 62
     7
370
    25
100
AcDbLine
 10
455.5954629203
 20
-672.7356724628
 30
0.0
 11
463.0954629203
 21
-588.7356724628
 31
0.0
  0
LINE
  5
B9
330
1F
100
AcDbEntity
  8
0
  6
Continuous
 62
     7
370
    25
100
AcDbLine
 10
-174.4045370797
 20
-672.7356724628
 30
0.0
 11
-174.4045370797
 21
-927.7356724628
 31
0.0
  0
LINE
  5
BA
330
1F
100
AcDbEntity
  8
0
  6
Continuous
 62
     7
370
    25
100
AcDbLine
 10
455.5954629203
 20
-927.7356724628
 30
0.0
 11
455.5954629203
 21
-672.7356724628
 31
0.0
  0
LINE
  5
BB
330
1F
100
AcDbEntity
  8
0
  6
Continuous
 62
     7
370
    25
100
AcDbLine
 10
-204.4045370797
 20
-523.7356724628
 30
0.0
 11
485.5954629203
 21
-523.7356724628
 31
0.0
  0
LINE
  5
BC
330
1F
100
AcDbEntity
  8
0
  6
Continuous
 62
     7
370
    25
100
AcDbLine
 10
-204.4045370797
 20
-588.7356724628
 30
0.0
 11
485.5954629203
 21
-588.7356724628
 31
0.0
  0
LINE
  5
BD
330
1F
100
AcDbEntity
  8
0
  6
Continuous
 62
     7
370
    25
100
AcDbLine
 10
-174.4045370797
 20
-672.7356724628
 30
0.0
 11
455.5954629203
 21
-672.7356724628
 31
0.0
  0
LINE
  5
BE
330
1F
100
AcDbEntity
  8
0
  6
Continuous
 62
     7
370
    25
100
AcDbLine
 10
-174.4045370797
 20
-927.7356724628
 30
0.0
 11
455.5954629203
 21
-927.7356724628
 31
0.0
  0
LINE
  5
BF
330
1F
100
AcDbEntity
  8
0
  6
Continuous
 62
     7
370
    25
100
AcDbLine
 10
771.9017266549
 20
-480.0703432797
 30
0.0
 11
652.8944024777
 21
-596.2251400148
 31
0.0
  0
LINE
  5
C0
330
1F
100
AcDbEntity
  8
0
  6
Continuous
 62
     7
370
    25
100
AcDbLine
 10
1092.9356424276
 20
-1047.0729049459
 30
0.0
 11
1211.9429666048
 21
-930.9181082108
 31
0.0
  0
LINE
  5
C1
330
1F
100
AcDbEntity
  8
0
  6
Continuous
 62
     7
370
    25
100
AcDbLine
 10
788.9226776119
 20
-455.4110404898
 30
0.0
 11
763.0091298371
 21
-488.749790389
 31
0.0
  0
LINE
  5
C2
330
1F
100
AcDbEntity
  8
0
  6
Continuous
 62
     7
370
    25
100
AcDbLine
 10
1203.050369787
 20
-939.5975553201
 30
0.0
 11
1237.0078829215
 21
-914.5003143396
 31
0.0
  0
LINE
  5
C3
330
1F
100
AcDbEntity
  8
0
  6
Continuous
 62
     7
370
    25
100
AcDbLine
 10
820.4849948459
 20
-390.7305600787
 30
0.0
 11
790.1497945655
 21
-420.3386455209
 31
0.0
  0
LINE
  5
C4
330
1F
100
AcDbEntity
  8
0
  6
Continuous
 62
     7
370
    25
100
AcDbLine
 10
1272.0997240344
 20
-914.1242928264
 30
0.0
 11
1302.4349243149
 21
-884.5162073841
 31
0.0
  0
LWPOLYLINE
  5
C5
330
1F
100
AcDbEntity
  8
0
  6
Continuous
 62
     7
370
    25
100
AcDbPolyline
 90
       96
 70
   128
 43
0.0
 10
771.9017266549
 20
-480.0703432797
 10
773.28374519
 20
-478.7356968118
 10
779.175176625
 20
-473.349612483
 10
785.304219532
 20
-468.222804098
 10
791.6640285514
 20
-463.3609976482
 10
798.247500587
 20
-458.7696231518
 10
805.0472827397
 20
-454.4538085888
 10
812.0557805197
 20
-450.418374174
 10
819.2651663281
 20
-446.6678269734
 10
826.6673881999
 20
-443.20635587
 10
834.2541787968
 20
-440.037826886
 10
842.0170646407
 20
-437.1657788642
 10
849.9473755776
 20
-434.5934195164
 10
858.0362544609
 20
-432.3236218399
 10
866.274667044
 20
-430.3589209096
 10
874.6534120701
 20
-428.7015110458
 10
883.1631315489
 20
-427.3532433643
 10
891.7943212085
 20
-426.315623708
 10
900.5373411101
 20
-425.589810966
 10
909.3824264149
 20
-425.1766157786
 10
918.31969829
 20
-425.076499632
 10
927.3391749419
 20
-425.2895743434
 10
936.4307827647
 20
-425.8156019353
 10
945.5843675914
 20
-426.653994902
 10
954.7897060344
 20
-427.8038168655
 10
964.036516904
 20
-429.2637836211
 10
973.314472691
 20
-431.0322645722
 10
982.6132111015
 20
-433.1072845507
 10
991.9223466298
 20
-435.4865260241
 10
1001.2314821582
 20
-438.1673316826
 10
1010.5302205686
 20
-441.1467074083
 10
1019.8081763557
 20
-444.421325618
 10
1029.0549872253
 20
-447.9875289807
 10
1038.2603256683
 20
-451.8413345018
 10
1047.413910495
 20
-455.9784379716
 10
1056.5055183178
 20
-460.394218773
 10
1065.5249949697
 20
-465.0837450416
 10
1074.4622668447
 20
-470.0417791743
 10
1083.3073521495
 20
-475.2627836789
 10
1092.0503720511
 20
-480.7409273589
 10
1100.6815617107
 20
-486.4700918261
 10
1109.1912811895
 20
-492.4438783339
 10
1117.5700262156
 20
-498.6556149242
 10
1125.8084387987
 20
-505.0983638791
 10
1133.8973176821
 20
-511.7649294691
 10
1141.827628619
 20
-518.6478659902
 10
1149.5905144629
 20
-525.7394860797
 10
1157.1773050598
 20
-533.0318693017
 10
1164.5795269316
 20
-540.5168709937
 10
1171.78891274
 20
-548.1861313629
 10
1178.7974105199
 20
-556.0310848229
 10
1185.5971926727
 20
-564.0429695607
 10
1192.1806647083
 20
-572.2128373222
 10
1198.5404737276
 20
-580.5315634065
 10
1204.6695166347
 20
-588.9898568568
 10
1210.5609480697
 20
-597.5782708374
 10
1216.2081880547
 20
-606.2872131847
 10
1221.6049293424
 20
-615.10695712
 10
1226.7451444606
 20
-624.0276521135
 10
1231.6230924444
 20
-633.039334886
 10
1236.2333252474
 20
-642.1319405365
 10
1240.5706938273
 20
-651.2953137834
 10
1244.6303538962
 20
-660.5192203067
 10
1248.4077713314
 20
-669.7933581785
 10
1251.8987272388
 20
-679.107369369
 10
1255.0993226659
 20
-688.4508513147
 10
1258.0059829554
 20
-697.8133685374
 10
1260.6154617383
 20
-707.1844642985
 10
1262.9248445594
 20
-716.5536722786
 10
1264.9315521324
 20
-725.9105282666
 10
1266.6333432207
 20
-735.2445818469
 10
1268.0283171407
 20
-744.5454080715
 10
1269.1149158842
 20
-753.8026191028
 10
1269.8919258589
 20
-763.0058758163
 10
1270.3584792438
 20
-772.144899347
 10
1270.5140549582
 20
-781.2094825707
 10
1270.3584792438
 20
-790.1895015032
 10
1269.8919258589
 20
-799.0749266079
 10
1269.1149158842
 20
-807.8558339977
 10
1268.0283171407
 20
-816.5224165181
 10
1266.6333432207
 20
-825.0649947011
 10
1264.9315521324
 20
-833.4740275757
 10
1262.9248445594
 20
-841.7401233241
 10
1260.6154617383
 20
-849.8540497709
 10
1258.0059829554
 20
-857.8067446943
 10
1255.0993226659
 20
-865.589325948
 10
1251.8987272388
 20
-873.1931013805
 10
1248.4077713314
 20
-880.609578544
 10
1244.6303538962
 20
-887.8304741786
 10
1240.5706938273
 20
-894.8477234644
 10
1236.2333252474
 20
-901.6534890284
 10
1231.6230924444
 20
-908.2401696978
 10
1226.7451444606
 20
-914.6004089899
 10
1221.6049293424
 20
-920.7271033282
 10
1216.2081880547
 20
-926.6134099758
 10
1211.9429666048
 20
-930.9181082108
  0
LWPOLYLINE
  5
C6
330
1F
100
AcDbEntity
  8
0
  6
Continuous
 62
     7
370
    25
100
AcDbPolyline
 90
      189
 70
   128
 43
0.0
 10
594.3233141243
 20
-745.9337656549
 10
594.4788898387
 20
-736.9537467224
 10
594.9454432236
 20
-728.0683216176
 10
595.7224531983
 20
-719.2874142279
 10
596.8090519418
 20
-710.6208317075
 10
598.2040258618
 20
-702.0782535244
 10
599.9058169501
 20
-693.6692206498
 10
601.9125245231
 20
-685.4031249014
 10
604.2219073442
 20
-677.2891984547
 10
606.8313861271
 20
-669.3365035312
 10
609.7380464166
 20
-661.5539222775
 10
612.9386418437
 20
-653.950146845
 10
616.4295977511
 20
-646.5336696816
 10
620.2070151863
 20
-639.3127740469
 10
624.2666752552
 20
-632.2955247611
 10
628.6040438351
 20
-625.4897591972
 10
633.2142766381
 20
-618.9030785278
 10
638.0922246219
 20
-612.5428392356
 10
643.2324397401
 20
-606.4161448974
 10
648.6291810278
 20
-600.5298382497
 10
654.2764210128
 20
-594.8904935469
 10
660.1678524478
 20
-589.5044092181
 10
666.2968953549
 20
-584.3776008331
 10
672.6567043742
 20
-579.5157943833
 10
679.2401764098
 20
-574.9244198869
 10
686.0399585626
 20
-570.6086053239
 10
693.0484563425
 20
-566.5731709091
 10
700.2578421509
 20
-562.8226237085
 10
707.6600640227
 20
-559.3611526051
 10
715.2468546196
 20
-556.1926236211
 10
723.0097404635
 20
-553.3205755993
 10
730.9400514004
 20
-550.7482162515
 10
739.0289302837
 20
-548.478418575
 10
747.2673428669
 20
-546.5137176447
 10
755.6460878929
 20
-544.8563077809
 10
764.1558073718
 20
-543.5080400994
 10
772.7869970314
 20
-542.4704204431
 10
781.530016933
 20
-541.7446077011
 10
790.3751022377
 20
-541.3314125137
 10
799.3123741128
 20
-541.2312963671
 10
808.3318507647
 20
-541.4443710785
 10
817.4234585875
 20
-541.9703986704
 10
826.5770434142
 20
-542.8087916371
 10
835.7823818572
 20
-543.9586136006
 10
845.0291927268
 20
-545.4185803562
 10
854.3071485139
 20
-547.1870613072
 10
863.6058869243
 20
-549.2620812858
 10
872.9150224527
 20
-551.6413227591
 10
882.224157981
 20
-554.3221284177
 10
891.5228963915
 20
-557.3015041434
 10
900.8008521785
 20
-560.5761223531
 10
910.0476630481
 20
-564.1423257158
 10
919.2530014911
 20
-567.9961312369
 10
928.4065863178
 20
-572.1332347067
 10
937.4981941406
 20
-576.5490155081
 10
946.5176707925
 20
-581.2385417767
 10
955.4549426676
 20
-586.1965759094
 10
964.3000279724
 20
-591.417580414
 10
973.043047874
 20
-596.895724094
 10
981.6742375335
 20
-602.6248885612
 10
990.1839570124
 20
-608.5986750689
 10
998.5627020385
 20
-614.8104116593
 10
1006.8011146216
 20
-621.2531606142
 10
1014.8899935049
 20
-627.9197262042
 10
1022.8203044418
 20
-634.8026627253
 10
1030.5831902857
 20
-641.8942828148
 10
1038.1699808826
 20
-649.1866660368
 10
1045.5722027544
 20
-656.6716677288
 10
1052.7815885628
 20
-664.340928098
 10
1059.7900863427
 20
-672.185881558
 10
1066.5898684955
 20
-680.1977662958
 10
1073.1733405311
 20
-688.3676340573
 10
1079.5331495505
 20
-696.6863601416
 10
1085.6621924575
 20
-705.1446535919
 10
1091.5536238925
 20
-713.7330675725
 10
1097.2008638775
 20
-722.4420099198
 10
1102.5976051652
 20
-731.2617538551
 10
1107.7378202835
 20
-740.1824488486
 10
1112.6157682672
 20
-749.1941316211
 10
1117.2260010702
 20
-758.2867372716
 10
1121.5633696501
 20
-767.4501105185
 10
1125.6230297191
 20
-776.6740170418
 10
1129.4004471542
 20
-785.9481549136
 10
1132.8914030617
 20
-795.2621661041
 10
1136.0919984887
 20
-804.6056480498
 10
1138.9986587782
 20
-813.9681652725
 10
1141.6081375611
 20
-823.3392610336
 10
1143.9175203822
 20
-832.7084690137
 10
1145.9242279552
 20
-842.0653250017
 10
1147.6260190436
 20
-851.399378582
 10
1149.0209929635
 20
-860.7002048066
 10
1150.107591707
 20
-869.9574158379
 10
1150.8846016818
 20
-879.1606725513
 10
1151.3511550667
 20
-888.2996960821
 10
1151.5067307811
 20
-897.3642793058
 10
1151.3511550667
 20
-906.3442982382
 10
1150.8846016818
 20
-915.229723343
 10
1150.107591707
 20
-924.0106307328
 10
1149.0209929635
 20
-932.6772132532
 10
1147.6260190436
 20
-941.2197914362
 10
1145.9242279552
 20
-949.6288243108
 10
1143.9175203822
 20
-957.8949200592
 10
1141.6081375611
 20
-966.008846506
 10
1138.9986587782
 20
-973.9615414294
 10
1136.0919984887
 20
-981.7441226831
 10
1132.8914030617
 20
-989.3478981156
 10
1129.4004471542
 20
-996.764375279
 10
1125.6230297191
 20
-1003.9852709137
 10
1121.5633696501
 20
-1011.0025201995
 10
1117.2260010702
 20
-1017.8082857635
 10
1112.6157682672
 20
-1024.3949664329
 10
1107.7378202835
 20
-1030.755205725
 10
1102.5976051652
 20
-1036.8819000632
 10
1097.2008638775
 20
-1042.7682067109
 10
1091.5536238925
 20
-1048.4075514137
 10
1085.6621924575
 20
-1053.7936357425
 10
1079.5331495505
 20
-1058.9204441276
 10
1073.1733405311
 20
-1063.7822505773
 10
1066.5898684955
 20
-1068.3736250738
 10
1059.7900863427
 20
-1072.6894396368
 10
1052.7815885628
 20
-1076.7248740515
 10
1045.5722027544
 20
-1080.4754212522
 10
1038.1699808826
 20
-1083.9368923555
 10
1030.5831902857
 20
-1087.1054213396
 10
1022.8203044418
 20
-1089.9774693613
 10
1014.8899935049
 20
-1092.5498287092
 10
1006.8011146216
 20
-1094.8196263856
 10
998.5627020385
 20
-1096.784327316
 10
990.1839570124
 20
-1098.4417371797
 10
981.6742375335
 20
-1099.7900048613
 10
973.043047874
 20
-1100.8276245175
 10
964.3000279724
 20
-1101.5534372595
 10
955.4549426676
 20
-1101.966632447
 10
946.5176707925
 20
-1102.0667485935
 10
937.4981941406
 20
-1101.8536738822
 10
928.4065863178
 20
-1101.3276462902
 10
919.2530014911
 20
-1100.4892533235
 10
910.0476630481
 20
-1099.33943136
 10
900.8008521785
 20
-1097.8794646044
 10
891.5228963915
 20
-1096.1109836534
 10
882.224157981
 20
-1094.0359636748
 10
872.9150224527
 20
-1091.6567222015
 10
863.6058869243
 20
-1088.9759165429
 10
854.3071485139
 20
-1085.9965408173
 10
845.0291927268
 20
-1082.7219226075
 10
835.7823818572
 20
-1079.1557192448
 10
826.5770434142
 20
-1075.3019137238
 10
817.4234585875
 20
-1071.1648102539
 10
808.3318507647
 20
-1066.7490294525
 10
799.3123741128
 20
-1062.0595031839
 10
790.3751022377
 20
-1057.1014690512
 10
781.530016933
 20
-1051.8804645466
 10
772.7869970314
 20
-1046.4023208666
 10
764.1558073718
 20
-1040.6731563995
 10
755.6460878929
 20
-1034.6993698917
 10
747.2673428669
 20
-1028.4876333013
 10
739.0289302837
 20
-1022.0448843465
 10
730.9400514004
 20
-1015.3783187564
 10
723.0097404635
 20
-1008.4953822353
 10
715.2468546196
 20
-1001.4037621459
 10
707.6600640227
 20
-994.1113789239
 10
700.2578421509
 20
-986.6263772318
 10
693.0484563425
 20
-978.9571168626
 10
686.0399585626
 20
-971.1121634026
 10
679.2401764098
 20
-963.1002786648
 10
672.6567043742
 20
-954.9304109033
 10
666.2968953548
 20
-946.611684819
 10
660.1678524478
 20
-938.1533913687
 10
654.2764210128
 20
-929.5649773881
 10
648.6291810278
 20
-920.8560350409
 10
643.2324397401
 20
-912.0362911056
 10
638.0922246219
 20
-903.115596112
 10
633.2142766381
 20
-894.1039133395
 10
628.6040438351
 20
-885.011307689
 10
624.2666752552
 20
-875.8479344422
 10
620.2070151863
 20
-866.6240279188
 10
616.4295977511
 20
-857.349890047
 10
612.9386418437
 20
-848.0358788565
 10
609.7380464166
 20
-838.6923969108
 10
606.8313861271
 20
-829.3298796882
 10
604.2219073442
 20
-819.958783927
 10
601.9125245231
 20
-810.5895759469
 10
599.9058169501
 20
-801.232719959
 10
598.2040258618
 20
-791.8986663786
 10
596.8090519418
 20
-782.5978401541
 10
595.7224531983
 20
-773.3406291227
 10
594.9454432236
 20
-764.1373724093
 10
594.4788898387
 20
-754.9983488785
 10
594.3233141243
 20
-745.9337656549
  0
LWPOLYLINE
  5
C7
330
1F
100
AcDbEntity
  8
0
  6
Continuous
 62
     7
370
    25
100
AcDbPolyline
 90
      171
 70
   128
 43
0.0
 10
644.9120306842
 20
-759.6826948308
 10
645.0677430148
 20
-751.5595556462
 10
645.5346673223
 20
-743.5321502424
 10
646.3121658441
 20
-735.6114430898
 10
647.399176611
 20
-727.8082529215
 10
648.7942148968
 20
-720.1332379567
 10
650.4953752472
 20
-712.5968813426
 10
652.5003340817
 20
-705.2094768359
 10
654.8063528677
 20
-697.9811147424
 10
657.4102818608
 20
-690.9216681354
 10
660.3085644075
 20
-684.0407793698
 10
663.4972418022
 20
-677.3478469119
 10
666.9719586953
 20
-670.8520125024
 10
670.7279690414
 20
-664.5621486698
 10
674.7601425821
 20
-658.4868466114
 10
679.0629718535
 20
-652.6344044591
 10
683.6305797083
 20
-647.012815945
 10
688.4567273437
 20
-641.6297594827
 10
693.5348228224
 20
-636.4925876798
 10
698.8579300768
 20
-631.6083172951
 10
704.4187783828
 20
-626.9836196545
 10
710.2097722904
 20
-622.6248115386
 10
716.2230019986
 20
-618.537846555
 10
722.4502541589
 20
-614.7283070063
 10
728.8830230939
 20
-611.2013962652
 10
735.5125224149
 20
-607.9619316676
 10
742.3296970234
 20
-605.0143379326
 10
749.3252354788
 20
-602.3626411184
 10
756.4895827171
 20
-600.0104631242
 10
763.8129531018
 20
-597.9610167419
 10
771.2853437897
 20
-596.217101269
 10
778.896548394
 20
-594.7810986841
 10
786.6361709248
 20
-593.6549703941
 10
794.4936399886
 20
-592.8402545548
 10
802.4582232279
 20
-592.3380639699
 10
810.5190419799
 20
-592.1490845715
 10
818.6650861359
 20
-592.2735744825
 10
826.8852291794
 20
-592.7113636649
 10
835.1682433838
 20
-593.4618541512
 10
843.502815148
 20
-594.5240208618
 10
851.8775604495
 20
-595.8964130045
 10
860.2810403935
 20
-597.577156057
 10
868.7017768374
 20
-599.5639543262
 10
877.1282680679
 20
-601.8540940848
 10
885.5490045118
 20
-604.4444472773
 10
893.9524844559
 20
-607.3314757929
 10
902.3272297573
 20
-610.5112362979
 10
910.6618015215
 20
-613.9793856218
 10
918.9448157259
 20
-617.7311866899
 10
927.1649587694
 20
-621.7615149933
 10
935.3110029254
 20
-626.0648655882
 10
943.3718216774
 20
-630.6353606153
 10
951.3364049167
 20
-635.4667573283
 10
959.1938739805
 20
-640.5524566204
 10
966.9334965113
 20
-645.885512038
 10
974.5447011157
 20
-651.458639269
 10
982.0170918036
 20
-657.264226092
 10
989.3404621882
 20
-663.2943427736
 10
996.5048094265
 20
-669.5407528998
 10
1003.5003478819
 20
-675.9949246258
 10
1010.3175224904
 20
-682.6480423293
 10
1016.9470218115
 20
-689.4910186518
 10
1023.3797907464
 20
-696.5145069108
 10
1029.6070429067
 20
-703.7089138661
 10
1035.6202726149
 20
-711.0644128232
 10
1041.4112665225
 20
-718.5709570553
 10
1046.9721148285
 20
-726.2182935259
 10
1052.295222083
 20
-733.9959768933
 10
1057.3733175617
 20
-741.8933837776
 10
1062.199465197
 20
-749.8997272708
 10
1066.7670730518
 20
-758.0040716708
 10
1071.0699023232
 20
-766.1953474181
 10
1075.102075864
 20
-774.4623662152
 10
1078.85808621
 20
-782.7938363088
 10
1082.3328031031
 20
-791.178377913
 10
1085.5214804978
 20
-799.6045387525
 10
1088.4197630445
 20
-808.0608097051
 10
1091.0236920377
 20
-816.5356405219
 10
1093.3297108236
 20
-825.0174556034
 10
1095.3346696581
 20
-833.4946698104
 10
1097.0358300085
 20
-841.9557042881
 10
1098.4308682943
 20
-850.3890022809
 10
1099.5178790612
 20
-858.7830449184
 10
1100.2953775831
 20
-867.126366948
 10
1100.7623018905
 20
-875.4075723953
 10
1100.9180142211
 20
-883.6153501298
 10
1100.7623018905
 20
-891.7384893145
 10
1100.2953775831
 20
-899.7658947182
 10
1099.5178790612
 20
-907.6866018708
 10
1098.4308682943
 20
-915.4897920391
 10
1097.0358300085
 20
-923.1648070039
 10
1095.3346696581
 20
-930.701163618
 10
1093.3297108236
 20
-938.0885681247
 10
1091.0236920377
 20
-945.3169302182
 10
1088.4197630445
 20
-952.3763768252
 10
1085.5214804978
 20
-959.2572655908
 10
1082.3328031031
 20
-965.9501980487
 10
1078.85808621
 20
-972.4460324582
 10
1075.102075864
 20
-978.7358962909
 10
1071.0699023232
 20
-984.8111983492
 10
1066.7670730518
 20
-990.6636405015
 10
1062.199465197
 20
-996.2852290157
 10
1057.3733175617
 20
-1001.668285478
 10
1052.295222083
 20
-1006.8054572808
 10
1046.9721148285
 20
-1011.6897276655
 10
1041.4112665225
 20
-1016.3144253062
 10
1035.6202726149
 20
-1020.6732334221
 10
1029.6070429067
 20
-1024.7601984057
 10
1023.3797907464
 20
-1028.5697379544
 10
1016.9470218115
 20
-1032.0966486954
 10
1010.3175224904
 20
-1035.336113293
 10
1003.5003478819
 20
-1038.2837070281
 10
996.5048094265
 20
-1040.9354038422
 10
989.3404621882
 20
-1043.2875818365
 10
982.0170918036
 20
-1045.3370282187
 10
974.5447011157
 20
-1047.0809436916
 10
966.9334965113
 20
-1048.5169462765
 10
959.1938739805
 20
-1049.6430745665
 10
951.3364049167
 20
-1050.4577904058
 10
943.3718216774
 20
-1050.9599809907
 10
935.3110029254
 20
-1051.1489603892
 10
927.1649587694
 20
-1051.0244704781
 10
918.9448157259
 20
-1050.5866812957
 10
910.6618015215
 20
-1049.8361908094
 10
902.3272297573
 20
-1048.7740240989
 10
893.9524844559
 20
-1047.4016319561
 10
885.5490045118
 20
-1045.7208889037
 10
877.1282680679
 20
-1043.7340906344
 10
868.7017768374
 20
-1041.4439508758
 10
860.2810403935
 20
-1038.8535976833
 10
851.8775604495
 20
-1035.9665691677
 10
843.502815148
 20
-1032.7868086628
 10
835.1682433838
 20
-1029.3186593388
 10
826.8852291794
 20
-1025.5668582707
 10
818.6650861359
 20
-1021.5365299674
 10
810.5190419799
 20
-1017.2331793725
 10
802.4582232279
 20
-1012.6626843453
 10
794.4936399886
 20
-1007.8312876323
 10
786.6361709248
 20
-1002.7455883402
 10
778.896548394
 20
-997.4125329226
 10
771.2853437897
 20
-991.8394056916
 10
763.8129531018
 20
-986.0338188687
 10
756.4895827171
 20
-980.003702187
 10
749.3252354788
 20
-973.7572920608
 10
742.3296970234
 20
-967.3031203348
 10
735.5125224149
 20
-960.6500026313
 10
728.8830230939
 20
-953.8070263088
 10
722.4502541589
 20
-946.7835380499
 10
716.2230019986
 20
-939.5891310946
 10
710.2097722904
 20
-932.2336321375
 10
704.4187783828
 20
-924.7270879053
 10
698.8579300768
 20
-917.0797514347
 10
693.5348228224
 20
-909.3020680673
 10
688.4567273437
 20
-901.404661183
 10
683.6305797083
 20
-893.3983176898
 10
679.0629718535
 20
-885.2939732898
 10
674.7601425821
 20
-877.1026975425
 10
670.7279690414
 20
-868.8356787455
 10
666.9719586953
 20
-860.5042086518
 10
663.4972418022
 20
-852.1196670476
 10
660.3085644075
 20
-843.6935062081
 10
657.4102818608
 20
-835.2372352555
 10
654.8063528676
 20
-826.7624044387
 10
652.5003340817
 20
-818.2805893572
 10
650.4953752472
 20
-809.8033751502
 10
648.7942148968
 20
-801.3423406726
 10
647.399176611
 20
-792.9090426797
 10
646.3121658441
 20
-784.5150000422
 10
645.5346673223
 20
-776.1716780126
 10
645.0677430148
 20
-767.8904725653
 10
644.9120306842
 20
-759.6826948308
  0
ARC
  5
C8
330
1F
100
AcDbEntity
  8
0
  6
Continuous
 62
     7
370
    25
100
AcDbCircle
 10
1000.0610068468
 20
-613.292803205
 30
0.0
 40
205.3275993369848
100
AcDbArc
 50
174.2548138812
 51
180.0445285334
  0
LWPOLYLINE
  5
C9
330
1F
100
AcDbEntity
  8
0
  6
Continuous
 62
     7
370
    25
100
AcDbPolyline
 90
       53
 70
   128
 43
0.0
 10
1099.8867018069
 20
-904.3291341349
 10
1093.1932605111
 20
-904.7296637005
 10
1085.1324417591
 20
-904.918643099
 10
1076.9863976031
 20
-904.7941531879
 10
1068.7662545596
 20
-904.3563640055
 10
1060.4832403552
 20
-903.6058735192
 10
1052.148668591
 20
-902.5437068086
 10
1043.7739232896
 20
-901.1713146659
 10
1035.3704433455
 20
-899.4905716134
 10
1026.9497069017
 20
-897.5037733442
 10
1018.5232156711
 20
-895.2136335856
 10
1010.1024792272
 20
-892.6232803931
 10
1001.6989992832
 20
-889.7362518775
 10
993.3242539817
 20
-886.5564913725
 10
984.9896822175
 20
-883.0883420486
 10
976.7066680131
 20
-879.3365409805
 10
968.4865249696
 20
-875.3062126771
 10
960.3404808136
 20
-871.0028620822
 10
952.2796620616
 20
-866.4323670551
 10
944.3150788223
 20
-861.6009703421
 10
936.4576097585
 20
-856.51527105
 10
928.7179872277
 20
-851.1822156324
 10
921.1067826234
 20
-845.6090884014
 10
913.6343919355
 20
-839.8035015784
 10
906.3110215508
 20
-833.7733848968
 10
899.1466743125
 20
-827.5269747706
 10
892.1511358571
 20
-821.0728030446
 10
885.3339612486
 20
-814.4196853411
 10
878.7044619276
 20
-807.5767090186
 10
872.2716929926
 20
-800.5532207596
 10
866.0444408323
 20
-793.3588138043
 10
860.0312111241
 20
-786.0033148472
 10
854.2402172165
 20
-778.4967706151
 10
848.6793689105
 20
-770.8494341445
 10
843.3562616561
 20
-763.0717507771
 10
838.2781661774
 20
-755.1743438928
 10
833.452018542
 20
-747.1680003996
 10
828.8844106872
 20
-739.0636559996
 10
824.5815814158
 20
-730.8723802523
 10
820.5494078751
 20
-722.6053614552
 10
816.793397529
 20
-714.2738913616
 10
813.3186806359
 20
-705.8893497574
 10
810.1300032412
 20
-697.4631889179
 10
807.2317206946
 20
-689.0069179653
 10
804.6277917014
 20
-680.5320871485
 10
802.3217729154
 20
-672.050272067
 10
800.3168140809
 20
-663.57305786
 10
798.6156537305
 20
-655.1120233823
 10
797.2206154447
 20
-646.6787253895
 10
796.1336046778
 20
-638.284682752
 10
795.356106156
 20
-629.9413607224
 10
794.8891818485
 20
-621.6601552751
 10
794.7334695179
 20
-613.4523775406
  0
LWPOLYLINE
  5
CA
330
1F
100
AcDbEntity
  8
0
  6
Continuous
 62
     7
370
    25
100
AcDbPolyline
 90
      104
 70
   128
 43
0.0
 10
788.9226776119
 20
-455.4110404898
 10
789.7973727152
 20
-454.2944553073
 10
794.9560694056
 20
-448.0437973174
 10
800.3730130911
 20
-442.0328178286
 10
806.0422804231
 20
-436.2680897588
 10
811.9576721412
 20
-430.7559167533
 10
818.1127198513
 20
-425.5023262926
 10
824.5006930992
 20
-420.5130631005
 10
831.1146067298
 20
-415.7935828632
 10
837.9472285257
 20
-411.349046263
 10
844.9910871153
 20
-407.1843133354
 10
852.2384801427
 20
-403.3039381548
 10
859.68148269
 20
-399.7121638544
 10
867.3119559431
 20
-396.4129179866
 10
875.1215560916
 20
-393.4098082285
 10
883.1017434524
 20
-390.7061184364
 10
891.2437918078
 20
-388.3048050555
 10
899.5387979474
 20
-386.2084938866
 10
907.9776914038
 20
-384.4194772152
 10
916.551244371
 20
-382.9397113048
 10
925.2500817946
 20
-381.7708142578
 10
934.0646916236
 20
-380.9140642457
 10
942.9854352115
 20
-380.3703981124
 10
952.0025578564
 20
-380.1404103485
 10
961.1061994668
 20
-380.2243524425
 10
970.2864053444
 20
-380.6221326048
 10
979.5331370689
 20
-381.3333158687
 10
988.8362834747
 20
-382.3571245657
 10
998.1856717081
 20
-383.6924391761
 10
1007.5710783501
 20
-385.3377995529
 10
1016.9822405964
 20
-387.2914065187
 10
1026.4088674793
 20
-389.5511238329
 10
1035.8406511206
 20
-392.114480528
 10
1045.2672780035
 20
-394.9786736109
 10
1054.6784402498
 20
-398.1405711285
 10
1064.0638468918
 20
-401.5967155925
 10
1073.4132351252
 20
-405.3433277594
 10
1082.7163815311
 20
-409.376310764
 10
1091.9631132555
 20
-413.6912545986
 10
1101.1433191331
 20
-418.2834409353
 10
1110.2469607435
 20
-423.1478482859
 10
1119.2640833884
 20
-428.2791574923
 10
1128.1848269763
 20
-433.6717575433
 10
1136.9994368053
 20
-439.3197517098
 10
1145.6982742289
 20
-445.2169639933
 10
1154.2718271961
 20
-451.3569458786
 10
1162.7107206525
 20
-457.7329833856
 10
1171.0057267921
 20
-464.3381044111
 10
1179.1477751475
 20
-471.165086352
 10
1187.1279625083
 20
-478.206464004
 10
1194.9375626568
 20
-485.4545377239
 10
1202.5680359099
 20
-492.9013818495
 10
1210.0110384572
 20
-500.538853366
 10
1217.2584314846
 20
-508.3586008107
 10
1224.3022900742
 20
-516.3520734043
 10
1231.1349118701
 20
-524.510530402
 10
1237.7488255007
 20
-532.8250506509
 10
1244.1367987486
 20
-541.286542345
 10
1250.2918464587
 20
-549.8857529676
 10
1256.2072381768
 20
-558.613279408
 10
1261.8765055088
 20
-567.4595782441
 10
1267.2934491943
 20
-576.4149761782
 10
1272.4521458847
 20
-585.469680614
 10
1277.3469546211
 20
-594.6137903652
 10
1281.9725230018
 20
-603.837306482
 10
1286.3237930359
 20
-613.1301431849
 10
1290.3960066734
 20
-622.4821388935
 10
1294.1847110084
 20
-631.8830673378
 10
1297.6857631485
 20
-641.3226487405
 10
1300.8953347444
 20
-650.7905610579
 10
1303.8099161769
 20
-660.276451267
 10
1306.4263203938
 20
-669.7699466861
 10
1308.7416863956
 20
-679.2606663173
 10
1310.7534823636
 20
-688.738232198
 10
1312.4595084283
 20
-698.1922807491
 10
1313.8578990754
 20
-707.6124741073
 10
1314.9471251852
 20
-716.9885114294
 10
1315.7259957049
 20
-726.3101401564
 10
1316.1936589511
 20
-735.5671672241
 10
1316.3496035409
 20
-744.7494702092
 10
1316.1936589511
 20
-753.8470083983
 10
1315.7259957049
 20
-762.849833767
 10
1314.9471251852
 20
-771.7481018578
 10
1313.8578990754
 20
-780.5320825453
 10
1312.4595084283
 20
-789.1921706755
 10
1310.7534823636
 20
-797.7188965692
 10
1308.7416863956
 20
-806.1029363769
 10
1306.4263203938
 20
-814.3351222741
 10
1303.8099161769
 20
-822.4064524863
 10
1300.8953347444
 20
-830.3081011326
 10
1297.6857631485
 20
-838.0314278761
 10
1294.1847110084
 20
-845.5679873724
 10
1290.3960066734
 20
-852.9095385044
 10
1286.3237930359
 20
-860.0480533936
 10
1281.9725230018
 20
-866.9757261789
 10
1277.3469546211
 20
-873.6849815518
 10
1272.4521458847
 20
-880.16848304
 10
1267.2934491943
 20
-886.4191410299
 10
1261.8765055088
 20
-892.4301205187
 10
1256.2072381768
 20
-898.1948485886
 10
1250.2918464587
 20
-903.707021594
 10
1244.1367987486
 20
-908.9606120548
 10
1237.7488255007
 20
-913.9498752468
 10
1237.0078829215
 20
-914.5003143396
  0
LWPOLYLINE
  5
CB
330
1F
100
AcDbEntity
  8
0
  6
Continuous
 62
     7
370
    25
100
AcDbPolyline
 90
      101
 70
   128
 43
0.0
 10
820.4849948459
 20
-390.7305600787
 10
822.2555032988
 20
-389.0238003776
 10
828.4177370491
 20
-383.3989924384
 10
834.8170126791
 20
-378.0327720929
 10
841.4468210834
 20
-372.9305976608
 10
848.3004186678
 20
-368.0976588841
 10
855.3708342076
 20
-363.5388716483
 10
862.6508759392
 20
-359.2588729823
 10
870.133138875
 20
-355.2620163414
 10
877.8100123355
 20
-351.5523671795
 10
885.6736876904
 20
-348.1336988139
 10
893.7161663019
 20
-345.0094885867
 10
901.9292676599
 20
-342.1829143284
 10
910.3046377031
 20
-339.6568511251
 10
918.8337573167
 20
-337.4338683944
 10
927.5079509976
 20
-335.5162272717
 10
936.3183956786
 20
-333.9058783101
 10
945.2561297031
 20
-332.6044594968
 10
954.3120619405
 20
-331.6132945864
 10
963.4769810336
 20
-330.9333917551
 10
972.7415647674
 20
-330.5654425748
 10
982.0963895521
 20
-330.5098213096
 10
991.5319400079
 20
-330.7665845355
 10
1001.0386186439
 20
-331.3354710824
 10
1010.6067556203
 20
-332.2159023002
 10
1020.2266185839
 20
-333.4069826469
 10
1029.8884225681
 20
-334.9075005999
 10
1039.5823399453
 20
-336.7159298881
 10
1049.2985104234
 20
-338.8304310447
 10
1059.0270510751
 20
-341.2488532776
 10
1068.7580663909
 20
-343.9687366577
 10
1078.4816583439
 20
-346.9873146208
 10
1088.1879364581
 20
-350.3015167818
 10
1097.8670278686
 20
-353.9079720574
 10
1107.5090873635
 20
-357.8030120956
 10
1117.1043073986
 20
-361.9826750065
 10
1126.6429280732
 20
-366.4427093924
 10
1136.115247057
 20
-371.1785786723
 10
1145.5116294595
 20
-376.1854656962
 10
1154.8225176302
 20
-381.4582776447
 10
1164.0384408799
 20
-386.9916512099
 10
1173.1500251144
 20
-392.7799580498
 10
1182.1480023691
 20
-398.8173105141
 10
1191.0232202363
 20
-405.0975676326
 10
1199.7666511744
 20
-411.6143413611
 10
1208.369401691
 20
-418.3610030801
 10
1216.822721388
 20
-425.330690336
 10
1225.1180118633
 20
-432.5163138224
 10
1233.2468354558
 20
-439.9105645903
 10
1241.2009238287
 20
-447.5059214829
 10
1248.9721863791
 20
-455.2946587857
 10
1256.5527184679
 20
-463.2688540848
 10
1263.9348094599
 20
-471.4203963256
 10
1271.1109505666
 20
-479.7409940623
 10
1278.0738424843
 20
-488.2221838926
 10
1284.8164028183
 20
-496.8553390657
 10
1291.3317732872
 20
-505.6316782572
 10
1297.6133266984
 20
-514.5422745014
 10
1303.6546736895
 20
-523.5780642712
 10
1309.4496692271
 20
-532.7298566976
 10
1314.9924188573
 20
-541.9883429176
 10
1320.2772847013
 20
-551.3441055435
 10
1325.2988911902
 20
-560.7876282415
 10
1330.0521305327
 20
-570.3093054118
 10
1334.5321679106
 20
-579.8994519584
 10
1338.7344463964
 20
-589.5483131411
 10
1342.6546915889
 20
-599.2460744972
 10
1346.2889159605
 20
-608.9828718246
 10
1349.6334229132
 20
-618.7488012153
 10
1352.6848105392
 20
-628.5339291293
 10
1355.4399750803
 20
-638.3283024982
 10
1357.8961140858
 20
-648.1219588501
 10
1360.0507292623
 20
-657.9049364419
 10
1361.9016290155
 20
-667.6672843927
 10
1363.446930679
 20
-677.3990728054
 10
1364.6850624294
 20
-687.0904028669
 10
1365.6147648853
 20
-696.7314169167
 10
1366.2350923877
 20
-706.3123084739
 10
1366.5454139627
 20
-715.8233322121
 10
1366.5454139627
 20
-725.2548138718
 10
1366.2350923877
 20
-734.5971601006
 10
1365.6147648853
 20
-743.8408682116
 10
1364.6850624294
 20
-752.9765358486
 10
1363.446930679
 20
-761.9948705504
 10
1361.9016290155
 20
-770.8866992025
 10
1360.0507292623
 20
-779.6429773674
 10
1357.8961140858
 20
-788.2547984849
 10
1355.4399750803
 20
-796.7134029308
 10
1352.6848105392
 20
-805.0101869273
 10
1349.6334229132
 20
-813.1367112944
 10
1346.2889159605
 20
-821.0847100338
 10
1342.6546915889
 20
-828.8460987368
 10
1338.7344463964
 20
-836.4129828077
 10
1334.5321679106
 20
-843.7776654933
 10
1330.0521305327
 20
-850.9326557125
 10
1325.2988911902
 20
-857.8706756754
 10
1320.2772847013
 20
-864.5846682861
 10
1314.9924188573
 20
-871.0678043212
 10
1309.4496692271
 20
-877.3134893757
 10
1303.6546736895
 20
-883.3153705713
 10
1302.4349243149
 20
-884.5162073841
  0
LWPOLYLINE
  5
CC
330
1F
100
AcDbEntity
  8
0
  6
Continuous
 62
     7
370
    25
100
AcDbPolyline
 90
      127
 70
   128
 43
0.0
 10
734.7653629291
 20
-516.3165727439
 10
735.879132802
 20
-512.3510586212
 10
738.485115935
 20
-503.9722990119
 10
741.388761227
 20
-495.7596005573
 10
744.5871151981
 20
-487.7213169087
 10
748.0769246015
 20
-479.8656243092
 10
751.854639733
 20
-472.200513277
 10
755.9164180412
 20
-464.7337804781
 10
760.2581280364
 20
-457.4730207951
 10
764.8753534927
 20
-450.4256196028
 10
769.76339794
 20
-443.5987452555
 10
774.9172894415
 20
-436.9993417958
 10
780.3317856503
 20
-430.6341218914
 10
786.0013791425
 20
-424.5095600073
 10
791.9203030183
 20
-418.6318858199
 10
798.0825367687
 20
-413.0070778807
 10
804.4818123986
 20
-407.6408575352
 10
811.111620803
 20
-402.5386831031
 10
817.9652183873
 20
-397.7057443264
 10
825.0356339272
 20
-393.1469570906
 10
832.3156756588
 20
-388.8669584246
 10
839.7979385946
 20
-384.8701017837
 10
847.474812055
 20
-381.1604526218
 10
855.33848741
 20
-377.7417842562
 10
863.3809660215
 20
-374.617574029
 10
871.5940673794
 20
-371.7909997706
 10
879.9694374226
 20
-369.2649365674
 10
888.4985570363
 20
-367.0419538367
 10
897.1727507171
 20
-365.124312714
 10
905.9831953981
 20
-363.5139637524
 10
914.9209294226
 20
-362.212544939
 10
923.9768616601
 20
-361.2213800287
 10
933.1417807531
 20
-360.5414771974
 10
942.406364487
 20
-360.1735280171
 10
951.7611892717
 20
-360.1179067519
 10
961.1967397275
 20
-360.3746699778
 10
970.7034183635
 20
-360.9435565247
 10
980.2715553398
 20
-361.8239877425
 10
989.8914183035
 20
-363.0150680891
 10
999.5532222877
 20
-364.5155860421
 10
1009.2471396649
 20
-366.3240153304
 10
1018.9633101429
 20
-368.4385164869
 10
1028.6918507947
 20
-370.8569387198
 10
1038.4228661104
 20
-373.5768221
 10
1048.1464580634
 20
-376.5954000631
 10
1057.8527361777
 20
-379.9096022241
 10
1067.5318275881
 20
-383.5160574997
 10
1077.173887083
 20
-387.4110975379
 10
1086.7691071182
 20
-391.5907604487
 10
1096.3077277927
 20
-396.0507948347
 10
1105.7800467765
 20
-400.7866641146
 10
1115.1764291791
 20
-405.7935511384
 10
1124.4873173497
 20
-411.066363087
 10
1133.7032405995
 20
-416.5997366521
 10
1142.8148248339
 20
-422.3880434921
 10
1151.8128020886
 20
-428.4253959564
 10
1160.6880199558
 20
-434.7056530748
 10
1169.431450894
 20
-441.2224268034
 10
1178.0342014105
 20
-447.9690885223
 10
1186.4875211076
 20
-454.9387757783
 10
1194.7828115828
 20
-462.1243992647
 10
1202.9116351754
 20
-469.5186500325
 10
1210.8657235482
 20
-477.1140069251
 10
1218.6369860987
 20
-484.9027442279
 10
1226.2175181875
 20
-492.8769395271
 10
1233.5996091794
 20
-501.0284817678
 10
1240.7757502861
 20
-509.3490795046
 10
1247.7386422038
 20
-517.8302693349
 10
1254.4812025379
 20
-526.4634245079
 10
1260.9965730068
 20
-535.2397636994
 10
1267.278126418
 20
-544.1503599436
 10
1273.3194734091
 20
-553.1861497135
 10
1279.1144689467
 20
-562.3379421399
 10
1284.6572185768
 20
-571.5964283599
 10
1289.9420844208
 20
-580.9521909858
 10
1294.9636909097
 20
-590.3957136838
 10
1299.7169302522
 20
-599.9173908541
 10
1304.1969676301
 20
-609.5075374007
 10
1308.399246116
 20
-619.1563985834
 10
1312.3194913084
 20
-628.8541599395
 10
1315.95371568
 20
-638.5909572669
 10
1319.2982226328
 20
-648.3568866576
 10
1322.3496102587
 20
-658.1420145715
 10
1325.1047747999
 20
-667.9363879405
 10
1327.5609138053
 20
-677.7300442924
 10
1329.7155289818
 20
-687.5130218842
 10
1331.566428735
 20
-697.275369835
 10
1333.1117303985
 20
-707.0071582477
 10
1334.349862149
 20
-716.6984883092
 10
1335.2795646048
 20
-726.339502359
 10
1335.8998921072
 20
-735.9203939162
 10
1336.2102136822
 20
-745.4314176544
 10
1336.2102136822
 20
-754.8628993141
 10
1335.8998921072
 20
-764.2052455429
 10
1335.2795646048
 20
-773.4489536538
 10
1334.349862149
 20
-782.5846212909
 10
1333.1117303985
 20
-791.6029559927
 10
1331.566428735
 20
-800.4947846447
 10
1329.7155289818
 20
-809.2510628097
 10
1327.5609138053
 20
-817.8628839272
 10
1325.1047747999
 20
-826.321488373
 10
1322.3496102587
 20
-834.6182723696
 10
1319.2982226328
 20
-842.7447967366
 10
1315.95371568
 20
-850.692795476
 10
1312.3194913084
 20
-858.4541841791
 10
1308.399246116
 20
-866.02106825
 10
1304.1969676301
 20
-873.3857509356
 10
1299.7169302522
 20
-880.5407411548
 10
1294.9636909097
 20
-887.4787611177
 10
1289.9420844208
 20
-894.1927537284
 10
1284.6572185768
 20
-900.6758897634
 10
1279.1144689467
 20
-906.921574818
 10
1273.3194734091
 20
-912.9234560136
 10
1267.278126418
 20
-918.6754284599
 10
1260.9965730068
 20
-924.1716414646
 10
1254.4812025379
 20
-929.4065044842
 10
1247.7386422038
 20
-934.3746928108
 10
1240.7757502861
 20
-939.0711529881
 10
1233.5996091794
 20
-943.4911079515
 10
1226.2175181875
 20
-947.6300618872
 10
1218.6369860987
 20
-951.4838048052
 10
1210.8657235482
 20
-955.0484168216
 10
1202.9116351753
 20
-958.3202721457
 10
1194.7828115828
 20
-961.2960427679
 10
1186.4875211076
 20
-963.9727018451
 10
1178.0342014105
 20
-966.3475267792
 10
1174.806602879
 20
-967.164337675
  0
LWPOLYLINE
  5
CD
330
1F
100
AcDbEntity
  8
0
  6
Continuous
 62
     7
370
    25
100
AcDbPolyline
 90
       49
 70
   128
 43
0.0
 10
1100.7435717926
 20
-892.2103771872
 10
1096.9090767917
 20
-891.7194115537
 10
1088.0846573182
 20
-890.3712408583
 10
1079.2277997517
 20
-888.7151358319
 10
1070.3492948089
 20
-886.7531141833
 10
1061.4599595804
 20
-884.4875663336
 10
1052.5706243519
 20
-881.9212525039
 10
1043.6921194091
 20
-879.0572993523
 10
1034.8352618426
 20
-875.8991961646
 10
1026.0108423691
 20
-872.450790603
 10
1017.2296121844
 20
-868.7162840185
 10
1008.5022698649
 20
-864.7002263322
 10
999.8394483327
 20
-860.4075104917
 10
991.2517019016
 20
-855.8433665099
 10
982.7494934177
 20
-851.0133550934
 10
974.3431815125
 20
-845.9233608669
 10
966.0430079819
 20
-840.5795852045
 10
957.8590853091
 20
-834.9885386736
 10
949.8013843431
 20
-829.1570331031
 10
941.8797221513
 20
-823.0921732844
 10
934.1037500589
 20
-816.8013483149
 10
926.48294189
 20
-810.2922225958
 10
919.0265824256
 20
-803.5727264941
 10
911.7437560911
 20
-796.6510466809
 10
904.6433358886
 20
-789.5356161566
 10
897.7339725862
 20
-782.2351039774
 10
891.024084179
 20
-774.7584046929
 10
884.5218456323
 20
-767.1146275093
 10
878.2351789222
 20
-759.3130851918
 10
872.1717433837
 20
-751.3632827179
 10
866.338926379
 20
-743.2749056974
 10
860.7438342973
 20
-735.0578085717
 10
855.3932838962
 20
-726.722002608
 10
850.2937939973
 20
-718.2776437018
 10
845.4515775435
 20
-709.7350200036
 10
840.8725340297
 20
-701.1045393846
 10
836.562242315
 20
-692.3967167559
 10
832.525953826
 20
-683.6221612582
 10
828.7685861584
 20
-674.7915633356
 10
825.294717086
 20
-665.9156817114
 10
822.1085789831
 20
-657.0053302803
 10
819.2140536682
 20
-648.0713649329
 10
816.6146676745
 20
-639.1246703297
 10
814.3135879535
 20
-630.1761466401
 10
812.3136180163
 20
-621.2366962618
 10
810.6171945183
 20
-612.3172105379
 10
809.2263842901
 20
-603.428556488
 10
808.1428818198
 20
-594.5815635677
 10
807.9007578318
 20
-592.175934585
  0
ENDSEC
  0
SECTION
  2
OBJECTS
  0
DICTIONARY
  5
C
330
0
100
AcDbDictionary
281
     1
  3
ACAD_GROUP
350
D
  3
ACAD_LAYOUT
350
1A
  3
ACAD_MLINESTYLE
350
17
  3
ACAD_PLOTSETTINGS
350
19
  3
ACAD_PLOTSTYLENAME
350
E
  3
ACAD_SCALELIST
350
47
  0
DICTIONARY
  5
D
102
{ACAD_REACTORS
330
C
102
}
330
C
100
AcDbDictionary
281
     1
  0
DICTIONARY
  5
1A
102
{ACAD_REACTORS
330
C
102
}
330
C
100
AcDbDictionary
281
     1
  3
Layout1
350
1E
  3
Layout2
350
26
  3
Model
350
22
  0
DICTIONARY
  5
17
102
{ACAD_REACTORS
330
C
102
}
330
C
100
AcDbDictionary
281
     1
  3
Standard
350
18
  0
DICTIONARY
  5
19
102
{ACAD_REACTORS
330
C
102
}
330
C
100
AcDbDictionary
281
     1
  0
ACDBDICTIONARYWDFLT
  5
E
102
{ACAD_REACTORS
330
C
102
}
330
C
100
AcDbDictionary
281
     1
  3
Normal
350
F
100
AcDbDictionaryWithDefault
340
F
  0
DICTIONARY
  5
47
102
{ACAD_REACTORS
330
C
102
}
330
C
100
AcDbDictionary
281
     1
  3
A0
350
48
  3
A1
350
49
  3
A2
350
4A
  3
A3
350
4B
  3
A4
350
4C
  3
A5
350
4D
  3
A6
350
4E
  3
A7
350
4F
  3
A8
350
50
  3
A9
350
51
  3
B0
350
52
  3
B1
350
53
  3
B2
350
54
  3
B3
350
55
  3
B4
350
56
  3
B5
350
57
  3
B6
350
58
  3
B7
350
59
  3
B8
350
5A
  3
B9
350
5B
  3
C0
350
5C
  3
C1
350
5D
  3
C2
350
5E
  3
C3
350
5F
  3
C4
350
60
  3
C5
350
61
  3
C6
350
62
  3
C7
350
63
  3
C8
350
64
  3
C9
350
65
  3
D0
350
66
  3
D1
350
67
  3
D2
350
68
  0
LAYOUT
  5
1E
102
{ACAD_REACTORS
330
1A
102
}
330
1A
100
AcDbPlotSettings
  1

  2
none_device
  4

  6

 40
0.0
 41
0.0
 42
0.0
 43
0.0
 44
0.0
 45
0.0
 46
0.0
 47
0.0
 48
0.0
 49
0.0
140
0.0
141
0.0
142
1.0
143
1.0
 70
   688
 72
     1
 73
     0
 74
     5
  7

 75
    16
147
1.0
148
0.0
149
0.0
100
AcDbLayout
  1
Layout1
 70
     1
 71
     1
 10
0.0
 20
0.0
 11
420.0
 21
297.0
 12
0.0
 22
0.0
 32
0.0
 14
1.0000000000E+20
 24
1.0000000000E+20
 34
1.0000000000E+20
 15
-1.0000000000E+20
 25
-1.0000000000E+20
 35
-1.0000000000E+20
146
0.0
 13
0.0
 23
0.0
 33
0.0
 16
1.0
 26
0.0
 36
0.0
 17
0.0
 27
1.0
 37
0.0
 76
     0
330
1B
  0
LAYOUT
  5
26
102
{ACAD_REACTORS
330
1A
102
}
330
1A
100
AcDbPlotSettings
  1

  2
none_device
  4

  6

 40
0.0
 41
0.0
 42
0.0
 43
0.0
 44
0.0
 45
0.0
 46
0.0
 47
0.0
 48
0.0
 49
0.0
140
0.0
141
0.0
142
1.0
143
1.0
 70
   688
 72
     1
 73
     0
 74
     5
  7

 75
    16
147
1.0
148
0.0
149
0.0
100
AcDbLayout
  1
Layout2
 70
     1
 71
     2
 10
0.0
 20
0.0
 11
0.0
 21
0.0
 12
0.0
 22
0.0
 32
0.0
 14
0.0
 24
0.0
 34
0.0
 15
0.0
 25
0.0
 35
0.0
146
0.0
 13
0.0
 23
0.0
 33
0.0
 16
1.0
 26
0.0
 36
0.0
 17
0.0
 27
1.0
 37
0.0
 76
     0
330
23
  0
LAYOUT
  5
22
102
{ACAD_REACTORS
330
1A
102
}
330
1A
100
AcDbPlotSettings
  1

  2
none_device
  4
Letter_(8.50_x_11.00_Inches)
  6

 40
6.35
 41
6.35
 42
6.35000508
 43
6.35000508
 44
215.9
 45
279.4
 46
0.0
 47
0.0
 48
0.0
 49
0.0
140
0.0
141
0.0
142
1.0
143
1.0
 70
  1712
 72
     1
 73
     0
 74
     0
  7

 75
     0
147
1.0
148
0.0
149
0.0
100
AcDbLayout
  1
Model
 70
     1
 71
     0
 10
0.0
 20
0.0
 11
279.4
 21
215.9
 12
0.0
 22
0.0
 32
0.0
 14
0.0
 24
0.0
 34
0.0
 15
279.4
 25
215.9
 35
0.0
146
0.0
 13
0.0
 23
0.0
 33
0.0
 16
1.0
 26
0.0
 36
0.0
 17
0.0
 27
1.0
 37
0.0
 76
     0
330
1F
331
29
  0
MLINESTYLE
  5
18
102
{ACAD_REACTORS
330
17
102
}
330
17
100
AcDbMlineStyle
  2
Standard
 70
     0
  3

 62
   256
 51
90.0
 52
90.0
 71
     2
 49
0.5
 62
   256
  6
BYLAYER
 49
-0.5
 62
   256
  6
BYLAYER
  0
ACDBPLACEHOLDER
  5
F
102
{ACAD_REACTORS
330
E
102
}
330
E
  0
SCALE
  5
48
102
{ACAD_REACTORS
330
47
102
}
330
47
100
AcDbScale
 70
     0
300
1:1
140
1.0
141
1.0
290
     1
  0
SCALE
  5
49
102
{ACAD_REACTORS
330
47
102
}
330
47
100
AcDbScale
 70
     0
300
1:2
140
1.0
141
2.0
290
     0
  0
SCALE
  5
4A
102
{ACAD_REACTORS
330
47
102
}
330
47
100
AcDbScale
 70
     0
300
1:4
140
1.0
141
4.0
290
     0
  0
SCALE
  5
4B
102
{ACAD_REACTORS
330
47
102
}
330
47
100
AcDbScale
 70
     0
300
1:5
140
1.0
141
5.0
290
     0
  0
SCALE
  5
4C
102
{ACAD_REACTORS
330
47
102
}
330
47
100
AcDbScale
 70
     0
300
1:8
140
1.0
141
8.0
290
     0
  0
SCALE
  5
4D
102
{ACAD_REACTORS
330
47
102
}
330
47
100
AcDbScale
 70
     0
300
1:10
140
1.0
141
10.0
290
     0
  0
SCALE
  5
4E
102
{ACAD_REACTORS
330
47
102
}
330
47
100
AcDbScale
 70
     0
300
1:16
140
1.0
141
16.0
290
     0
  0
SCALE
  5
4F
102
{ACAD_REACTORS
330
47
102
}
330
47
100
AcDbScale
 70
     0
300
1:20
140
1.0
141
20.0
290
     0
  0
SCALE
  5
50
102
{ACAD_REACTORS
330
47
102
}
330
47
100
AcDbScale
 70
     0
300
1:30
140
1.0
141
30.0
290
     0
  0
SCALE
  5
51
102
{ACAD_REACTORS
330
47
102
}
330
47
100
AcDbScale
 70
     0
300
1:40
140
1.0
141
40.0
290
     0
  0
SCALE
  5
52
102
{ACAD_REACTORS
330
47
102
}
330
47
100
AcDbScale
 70
     0
300
1:50
140
1.0
141
50.0
290
     0
  0
SCALE
  5
53
102
{ACAD_REACTORS
330
47
102
}
330
47
100
AcDbScale
 70
     0
300
1:100
140
1.0
141
100.0
290
     0
  0
SCALE
  5
54
102
{ACAD_REACTORS
330
47
102
}
330
47
100
AcDbScale
 70
     0
300
2:1
140
2.0
141
1.0
290
     0
  0
SCALE
  5
55
102
{ACAD_REACTORS
330
47
102
}
330
47
100
AcDbScale
 70
     0
300
4:1
140
4.0
141
1.0
290
     0
  0
SCALE
  5
56
102
{ACAD_REACTORS
330
47
102
}
330
47
100
AcDbScale
 70
     0
300
8:1
140
8.0
141
1.0
290
     0
  0
SCALE
  5
57
102
{ACAD_REACTORS
330
47
102
}
330
47
100
AcDbScale
 70
     0
300
10:1
140
10.0
141
1.0
290
     0
  0
SCALE
  5
58
102
{ACAD_REACTORS
330
47
102
}
330
47
100
AcDbScale
 70
     0
300
100:1
140
100.0
141
1.0
290
     0
  0
SCALE
  5
59
102
{ACAD_REACTORS
330
47
102
}
330
47
100
AcDbScale
 70
     0
300
1/128" = 1'-0"
140
0.0078125
141
12.0
290
     0
  0
SCALE
  5
5A
102
{ACAD_REACTORS
330
47
102
}
330
47
100
AcDbScale
 70
     0
300
1/64" = 1'-0"
140
0.015625
141
12.0
290
     0
  0
SCALE
  5
5B
102
{ACAD_REACTORS
330
47
102
}
330
47
100
AcDbScale
 70
     0
300
1/32" = 1'-0"
140
0.03125
141
12.0
290
     0
  0
SCALE
  5
5C
102
{ACAD_REACTORS
330
47
102
}
330
47
100
AcDbScale
 70
     0
300
1/16" = 1'-0"
140
0.0625
141
12.0
290
     0
  0
SCALE
  5
5D
102
{ACAD_REACTORS
330
47
102
}
330
47
100
AcDbScale
 70
     0
300
3/32" = 1'-0"
140
0.09375
141
12.0
290
     0
  0
SCALE
  5
5E
102
{ACAD_REACTORS
330
47
102
}
330
47
100
AcDbScale
 70
     0
300
1/8" = 1'-0"
140
0.125
141
12.0
290
     0
  0
SCALE
  5
5F
102
{ACAD_REACTORS
330
47
102
}
330
47
100
AcDbScale
 70
     0
300
3/16" = 1'-0"
140
0.1875
141
12.0
290
     0
  0
SCALE
  5
60
102
{ACAD_REACTORS
330
47
102
}
330
47
100
AcDbScale
 70
     0
300
1/4" = 1'-0"
140
0.25
141
12.0
290
     0
  0
SCALE
  5
61
102
{ACAD_REACTORS
330
47
102
}
330
47
100
AcDbScale
 70
     0
300
3/8" = 1'-0"
140
0.375
141
12.0
290
     0
  0
SCALE
  5
62
102
{ACAD_REACTORS
330
47
102
}
330
47
100
AcDbScale
 70
     0
300
1/2" = 1'-0"
140
0.5
141
12.0
290
     0
  0
SCALE
  5
63
102
{ACAD_REACTORS
330
47
102
}
330
47
100
AcDbScale
 70
     0
300
3/4" = 1'-0"
140
0.75
141
12.0
290
     0
  0
SCALE
  5
64
102
{ACAD_REACTORS
330
47
102
}
330
47
100
AcDbScale
 70
     0
300
1" = 1'-0"
140
1.0
141
12.0
290
     0
  0
SCALE
  5
65
102
{ACAD_REACTORS
330
47
102
}
330
47
100
AcDbScale
 70
     0
300
1-1/2" = 1'-0"
140
1.5
141
12.0
290
     0
  0
SCALE
  5
66
102
{ACAD_REACTORS
330
47
102
}
330
47
100
AcDbScale
 70
     0
300
3" = 1'-0"
140
3.0
141
12.0
290
     0
  0
SCALE
  5
67
102
{ACAD_REACTORS
330
47
102
}
330
47
100
AcDbScale
 70
     0
300
6" = 1'-0"
140
6.0
141
12.0
290
     0
  0
SCALE
  5
68
102
{ACAD_REACTORS
330
47
102
}
330
47
100
AcDbScale
 70
     0
300
1'-0" = 1'-0"
140
12.0
141
12.0
290
     0
  0
ENDSEC
  0
EOF
